  0
SECTION
  2
HEADER
  9
$ACADVER
  1
AC1015
  9
$ACADMAINTVER
 70
     6
  9
$DWGCODEPAGE
  3
ANSI_1254
  9
$INSBASE
 10
0.0
 20
0.0
 30
0.0
  9
$EXTMIN
 10
0.0
 20
0.0
 30
0.0
  9
$EXTMAX
 10
279.4
 20
215.9
 30
0.0
  9
$LIMMIN
 10
0.0
 20
0.0
  9
$LIMMAX
 10
279.4
 20
215.9
  9
$ORTHOMODE
 70
     0
  9
$REGENMODE
 70
     1
  9
$FILLMODE
 70
     1
  9
$QTEXTMODE
 70
     0
  9
$MIRRTEXT
 70
     1
  9
$LTSCALE
 40
1.0
  9
$ATTMODE
 70
     1
  9
$TEXTSIZE
 40
3.5
  9
$TRACEWID
 40
1.0
  9
$TEXTSTYLE
  7
Standard
  9
$CLAYER
  8
0
  9
$CELTYPE
  6
ByLayer
  9
$CECOLOR
 62
   256
  9
$CELTSCALE
 40
1.0
  9
$DISPSILH
 70
     0
  9
$DIMSCALE
 40
1.0
  9
$DIMASZ
 40
3.5
  9
$DIMEXO
 40
1.0
  9
$DIMDLI
 40
3.75
  9
$DIMRND
 40
0.0
  9
$DIMDLE
 40
0.0
  9
$DIMEXE
 40
1.0
  9
$DIMTP
 40
0.0
  9
$DIMTM
 40
0.0
  9
$DIMTXT
 40
3.5
  9
$DIMCEN
 40
2.5
  9
$DIMTSZ
 40
0.0
  9
$DIMTOL
 70
     0
  9
$DIMLIM
 70
     0
  9
$DIMTIH
 70
     1
  9
$DIMTOH
 70
     1
  9
$DIMSE1
 70
     0
  9
$DIMSE2
 70
     0
  9
$DIMTAD
 70
     1
  9
$DIMZIN
 70
     0
  9
$DIMBLK
  1

  9
$DIMASO
 70
     1
  9
$DIMSHO
 70
     1
  9
$DIMPOST
  1

  9
$DIMAPOST
  1

  9
$DIMALT
 70
     0
  9
$DIMALTD
 70
     3
  9
$DIMALTF
 40
0.0393700787
  9
$DIMLFAC
 40
1.0
  9
$DIMTOFL
 70
     1
  9
$DIMTVP
 40
0.0
  9
$DIMTIX
 70
     0
  9
$DIMSOXD
 70
     0
  9
$DIMSAH
 70
     0
  9
$DIMBLK1
  1

  9
$DIMBLK2
  1

  9
$DIMSTYLE
  2
ISO-25
  9
$DIMCLRD
 70
     0
  9
$DIMCLRE
 70
     0
  9
$DIMCLRT
 70
     0
  9
$DIMTFAC
 40
1.0
  9
$DIMGAP
 40
1.524
  9
$DIMJUST
 70
     0
  9
$DIMSD1
 70
     0
  9
$DIMSD2
 70
     0
  9
$DIMTOLJ
 70
     0
  9
$DIMTZIN
 70
     0
  9
$DIMALTZ
 70
     0
  9
$DIMALTTZ
 70
     0
  9
$DIMUPT
 70
     0
  9
$DIMDEC
 70
     2
  9
$DIMTDEC
 70
     2
  9
$DIMALTU
 70
     2
  9
$DIMALTTD
 70
     3
  9
$DIMTXSTY
  7
Standard
  9
$DIMAUNIT
 70
     0
  9
$DIMADEC
 70
     2
  9
$DIMALTRND
 40
0.0
  9
$DIMAZIN
 70
     0
  9
$DIMDSEP
 70
    44
  9
$DIMATFIT
 70
     3
  9
$DIMFRAC
 70
     0
  9
$DIMLDRBLK
  1

  9
$DIMLUNIT
 70
     2
  9
$DIMLWD
 70
    -2
  9
$DIMLWE
 70
    -2
  9
$DIMTMOVE
 70
     0
  9
$LUNITS
 70
     2
  9
$LUPREC
 70
     2
  9
$SKETCHINC
 40
1.0
  9
$FILLETRAD
 40
10.0
  9
$AUNITS
 70
     0
  9
$AUPREC
 70
     2
  9
$MENU
  1
.
  9
$ELEVATION
 40
0.0
  9
$PELEVATION
 40
0.0
  9
$THICKNESS
 40
0.0
  9
$LIMCHECK
 70
     0
  9
$CHAMFERA
 40
0.0
  9
$CHAMFERB
 40
0.0
  9
$CHAMFERC
 40
0.0
  9
$CHAMFERD
 40
0.0
  9
$SKPOLY
 70
     0
  9
$TDCREATE
 40
2458985.683669421
  9
$TDUCREATE
 40
2458985.558669421
  9
$TDUPDATE
 40
2458985.68366978
  9
$TDUUPDATE
 40
2458985.55866978
  9
$TDINDWG
 40
0.0000000116
  9
$TDUSRTIMER
 40
0.0000000116
  9
$USRTIMER
 70
     1
  9
$ANGBASE
 50
0.0
  9
$ANGDIR
 70
     0
  9
$PDMODE
 70
     0
  9
$PDSIZE
 40
-1.0
  9
$PLINEWID
 40
0.0
  9
$SPLFRAME
 70
     0
  9
$SPLINETYPE
 70
     6
  9
$SPLINESEGS
 70
     8
  9
$HANDSEED
  5
CB
  9
$SURFTAB1
 70
     6
  9
$SURFTAB2
 70
     6
  9
$SURFTYPE
 70
     6
  9
$SURFU
 70
     6
  9
$SURFV
 70
     6
  9
$UCSBASE
  2

  9
$UCSNAME
  2

  9
$UCSORG
 10
0.0
 20
0.0
 30
0.0
  9
$UCSXDIR
 10
1.0
 20
0.0
 30
0.0
  9
$UCSYDIR
 10
0.0
 20
1.0
 30
0.0
  9
$UCSORTHOREF
  2

  9
$UCSORTHOVIEW
 70
     0
  9
$UCSORGTOP
 10
0.0
 20
0.0
 30
0.0
  9
$UCSORGBOTTOM
 10
0.0
 20
0.0
 30
0.0
  9
$UCSORGLEFT
 10
0.0
 20
0.0
 30
0.0
  9
$UCSORGRIGHT
 10
0.0
 20
0.0
 30
0.0
  9
$UCSORGFRONT
 10
0.0
 20
0.0
 30
0.0
  9
$UCSORGBACK
 10
0.0
 20
0.0
 30
0.0
  9
$PUCSBASE
  2

  9
$PUCSNAME
  2

  9
$PUCSORG
 10
0.0
 20
0.0
 30
0.0
  9
$PUCSXDIR
 10
1.0
 20
0.0
 30
0.0
  9
$PUCSYDIR
 10
0.0
 20
1.0
 30
0.0
  9
$PUCSORTHOREF
  2

  9
$PUCSORTHOVIEW
 70
     0
  9
$PUCSORGTOP
 10
0.0
 20
0.0
 30
0.0
  9
$PUCSORGBOTTOM
 10
0.0
 20
0.0
 30
0.0
  9
$PUCSORGLEFT
 10
0.0
 20
0.0
 30
0.0
  9
$PUCSORGRIGHT
 10
0.0
 20
0.0
 30
0.0
  9
$PUCSORGFRONT
 10
0.0
 20
0.0
 30
0.0
  9
$PUCSORGBACK
 10
0.0
 20
0.0
 30
0.0
  9
$USERI1
 70
     0
  9
$USERI2
 70
     0
  9
$USERI3
 70
     0
  9
$USERI4
 70
     0
  9
$USERI5
 70
     0
  9
$USERR1
 40
0.0
  9
$USERR2
 40
0.0
  9
$USERR3
 40
0.0
  9
$USERR4
 40
0.0
  9
$USERR5
 40
0.0
  9
$WORLDVIEW
 70
     1
  9
$SHADEDGE
 70
     3
  9
$SHADEDIF
 70
    70
  9
$TILEMODE
 70
     1
  9
$MAXACTVP
 70
    64
  9
$PINSBASE
 10
0.0
 20
0.0
 30
0.0
  9
$PLIMCHECK
 70
     0
  9
$PEXTMIN
 10
1.0000000000E+20
 20
1.0000000000E+20
 30
1.0000000000E+20
  9
$PEXTMAX
 10
-1.0000000000E+20
 20
-1.0000000000E+20
 30
-1.0000000000E+20
  9
$PLIMMIN
 10
0.0
 20
0.0
  9
$PLIMMAX
 10
420.0
 20
297.0
  9
$UNITMODE
 70
     0
  9
$VISRETAIN
 70
     1
  9
$PLINEGEN
 70
     0
  9
$PSLTSCALE
 70
     1
  9
$TREEDEPTH
 70
  3020
  9
$CMLSTYLE
  2
Standard
  9
$CMLJUST
 70
     0
  9
$CMLSCALE
 40
20.0
  9
$PROXYGRAPHICS
 70
     1
  9
$MEASUREMENT
 70
     1
  9
$CELWEIGHT
370
    -1
  9
$ENDCAPS
280
     0
  9
$JOINSTYLE
280
     0
  9
$LWDISPLAY
290
     1
  9
$INSUNITS
 70
     4
  9
$HYPERLINKBASE
  1

  9
$STYLESHEET
  1

  9
$XEDIT
290
     1
  9
$CEPSNTYPE
380
     0
  9
$PSTYLEMODE
290
     1
  9
$FINGERPRINTGUID
  2
{036d0192-e56c-4938-a3fc-92d007a2b210}
  9
$VERSIONGUID
  2
{FAEB1C32-E019-11D5-929B-00C0DF256EC4}
  9
$EXTNAMES
290
     1
  9
$PSVPSCALE
 40
0.0
  9
$OLESTARTUP
290
     0
  0
ENDSEC
  0
SECTION
  2
CLASSES
  0
CLASS
  1
ACDBDICTIONARYWDFLT
  2
AcDbDictionaryWithDefault
  3
ObjectDBX Classes
 90
        0
280
     0
281
     0
  0
CLASS
  1
VISUALSTYLE
  2
AcDbVisualStyle
  3
ObjectDBX Classes
 90
     4095
280
     0
281
     0
  0
CLASS
  1
MATERIAL
  2
AcDbMaterial
  3
ObjectDBX Classes
 90
     1153
280
     0
281
     0
  0
CLASS
  1
SCALE
  2
AcDbScale
  3
ObjectDBX Classes
 90
     1153
280
     0
281
     0
  0
CLASS
  1
TABLESTYLE
  2
AcDbTableStyle
  3
ObjectDBX Classes
 90
     4095
280
     0
281
     0
  0
CLASS
  1
MLEADERSTYLE
  2
AcDbMLeaderStyle
  3
ACDB_MLEADERSTYLE_CLASS
 90
     4095
280
     0
281
     0
  0
CLASS
  1
SUN
  2
AcDbSun
  3
SCENEOE
 90
     1153
280
     0
281
     0
  0
CLASS
  1
ACDBPLACEHOLDER
  2
AcDbPlaceHolder
  3
ObjectDBX Classes
 90
        0
280
     0
281
     0
  0
CLASS
  1
LAYOUT
  2
AcDbLayout
  3
ObjectDBX Classes
 90
        0
280
     0
281
     0
  0
ENDSEC
  0
SECTION
  2
TABLES
  0
TABLE
  2
VPORT
  5
8
330
0
100
AcDbSymbolTable
 70
     1
  0
VPORT
  5
29
330
8
100
AcDbSymbolTableRecord
100
AcDbViewportTableRecord
  2
*Active
 70
     0
 10
0.0
 20
0.0
 11
1.0
 21
1.0
 12
139.7
 22
107.95
 13
0.0
 23
0.0
 14
10.0
 24
10.0
 15
10.0
 25
10.0
 16
0.0
 26
0.0
 36
1.0
 17
0.0
 27
0.0
 37
0.0
 40
215.9
 41
1.2941176471
 42
50.0
 43
0.0
 44
0.0
 50
0.0
 51
0.0
 71
     0
 72
  2000
 73
     1
 74
     3
 75
     0
 76
     0
 77
     0
 78
     0
281
     0
 65
     1
110
0.0
120
0.0
130
0.0
111
1.0
121
0.0
131
0.0
112
0.0
122
1.0
132
0.0
 79
     0
146
0.0
  0
ENDTAB
  0
TABLE
  2
LTYPE
  5
5
330
0
100
AcDbSymbolTable
 70
     6
  0
LTYPE
  5
14
330
5
100
AcDbSymbolTableRecord
100
AcDbLinetypeTableRecord
  2
ByBlock
 70
     0
  3

 72
    65
 73
     0
 40
0.0
  0
LTYPE
  5
15
330
5
100
AcDbSymbolTableRecord
100
AcDbLinetypeTableRecord
  2
ByLayer
 70
     0
  3

 72
    65
 73
     0
 40
0.0
  0
LTYPE
  5
16
330
5
100
AcDbSymbolTableRecord
100
AcDbLinetypeTableRecord
  2
Continuous
 70
     0
  3
Solid line
 72
    65
 73
     0
 40
0.0
  0
LTYPE
  5
6E
330
5
100
AcDbSymbolTableRecord
100
AcDbLinetypeTableRecord
  2
HIDDEN
 70
     0
  3
Hidden __ __ __ __ __ __ __ __ __ __ __ __ __ __
 72
    65
 73
     2
 40
1.905
 49
1.27
 74
     0
 49
-0.635
 74
     0
  0
LTYPE
  5
6F
330
5
100
AcDbSymbolTableRecord
100
AcDbLinetypeTableRecord
  2
PHANTOM
 70
     0
  3
Phantom ______  __  __  ______  __  __  ______
 72
    65
 73
     6
 40
12.7
 49
6.35
 74
     0
 49
-1.27
 74
     0
 49
1.27
 74
     0
 49
-1.27
 74
     0
 49
1.27
 74
     0
 49
-1.27
 74
     0
  0
LTYPE
  5
70
330
5
100
AcDbSymbolTableRecord
100
AcDbLinetypeTableRecord
  2
CENTER
 70
     0
  3
Center ____ _ ____ _ ____ _ ____ _ ____ _ ____
 72
    65
 73
     4
 40
10.16
 49
6.35
 74
     0
 49
-1.27
 74
     0
 49
1.27
 74
     0
 49
-1.27
 74
     0
  0
LTYPE
  5
71
330
5
100
AcDbSymbolTableRecord
100
AcDbLinetypeTableRecord
  2
CENTERX2
 70
     0
  3
Center (2x) ________  __  ________  __  _____
 72
    65
 73
     4
 40
20.32
 49
12.7
 74
     0
 49
-2.54
 74
     0
 49
2.54
 74
     0
 49
-2.54
 74
     0
  0
LTYPE
  5
72
330
5
100
AcDbSymbolTableRecord
100
AcDbLinetypeTableRecord
  2
DOT2
 70
     0
  3
Dot (.5x) ........................................
 72
    65
 73
     2
 40
0.635
 49
0.0
 74
     0
 49
-0.635
 74
     0
  0
ENDTAB
  0
TABLE
  2
LAYER
  5
2
330
0
100
AcDbSymbolTable
 70
    17
  0
LAYER
  5
10
330
2
100
AcDbSymbolTableRecord
100
AcDbLayerTableRecord
  2
0
 70
     0
 62
     7
  6
Continuous
370
    -3
390
F
  0
LAYER
  5
73
330
2
100
AcDbSymbolTableRecord
100
AcDbLayerTableRecord
  2
FORMAT
 70
     0
 62
     7
  6
Continuous
370
    -3
390
F
  0
LAYER
  5
74
330
2
100
AcDbSymbolTableRecord
100
AcDbLayerTableRecord
  2
YARDIMCI_GEOMETRI
 70
     0
 62
    -6
  6
Continuous
290
     0
370
    -3
390
F
  0
LAYER
  5
75
330
2
100
AcDbSymbolTableRecord
100
AcDbLayerTableRecord
  2
SAYFA_CERCEVESI
 70
     0
 62
     7
  6
Continuous
370
    25
390
F
  0
LAYER
  5
76
330
2
100
AcDbSymbolTableRecord
100
AcDbLayerTableRecord
  2
ANTET
 70
     0
 62
     7
  6
Continuous
370
    -3
390
F
  0
LAYER
  5
77
330
2
100
AcDbSymbolTableRecord
100
AcDbLayerTableRecord
  2
OLCU
 70
     0
 62
   150
  6
Continuous
370
    -3
390
F
  0
LAYER
  5
78
330
2
100
AcDbSymbolTableRecord
100
AcDbLayerTableRecord
  2
METIN
 70
     0
 62
    96
  6
Continuous
370
    -3
390
F
  0
LAYER
  5
79
330
2
100
AcDbSymbolTableRecord
100
AcDbLayerTableRecord
  2
BALON
 70
     0
 62
     5
  6
Continuous
370
    -3
390
F
  0
LAYER
  5
7A
330
2
100
AcDbSymbolTableRecord
100
AcDbLayerTableRecord
  2
VURGU
 70
     0
 62
     7
  6
Continuous
370
    -3
390
F
  0
LAYER
  5
7B
330
2
100
AcDbSymbolTableRecord
100
AcDbLayerTableRecord
  2
SILIK
 70
     0
 62
     7
  6
Continuous
370
    -3
390
F
  0
LAYER
  5
7C
330
2
100
AcDbSymbolTableRecord
100
AcDbLayerTableRecord
  2
MODEL
 70
     0
 62
     7
  6
Continuous
370
    -3
390
F
  0
LAYER
  5
7D
330
2
100
AcDbSymbolTableRecord
100
AcDbLayerTableRecord
  2
DETAYLANDıRMA
 70
     0
 62
   190
  6
Continuous
370
    -3
390
F
  0
LAYER
  5
7E
330
2
100
AcDbSymbolTableRecord
100
AcDbLayerTableRecord
  2
TOLERANS
 70
     0
 62
   230
  6
Continuous
370
    -3
390
F
  0
LAYER
  5
7F
330
2
100
AcDbSymbolTableRecord
100
AcDbLayerTableRecord
  2
MERKEZ_CIZGILERI
 70
     0
 62
    30
  6
Continuous
370
    -3
390
F
  0
LAYER
  5
80
330
2
100
AcDbSymbolTableRecord
100
AcDbLayerTableRecord
  2
KESIT-DETAY_CIZGILERI
 70
     0
 62
     7
  6
Continuous
370
    -3
390
F
  0
LAYER
  5
81
330
2
100
AcDbSymbolTableRecord
100
AcDbLayerTableRecord
  2
\U+041E\U+0421\U+0415\U+0412\U+042B\U+0415
 70
     0
 62
     7
  6
Continuous
370
    -3
390
F
  0
LAYER
  5
82
330
2
100
AcDbSymbolTableRecord
100
AcDbLayerTableRecord
  2
\U+0412\U+041E\U+0414\U+042F\U+041D\U+042B\U+0415_\U+0417\U+041D\U+0410\U+041A\U+0418
 70
     0
 62
    11
  6
Continuous
370
    -3
390
F
  0
ENDTAB
  0
TABLE
  2
STYLE
  5
3
330
0
100
AcDbSymbolTable
 70
     1
  0
STYLE
  5
11
330
3
100
AcDbSymbolTableRecord
100
AcDbTextStyleTableRecord
  2
Standard
 70
     0
 40
0.0
 41
1.0
 50
0.0
 71
     0
 42
3.5
  3
txt
  4

  0
ENDTAB
  0
TABLE
  2
VIEW
  5
6
330
0
100
AcDbSymbolTable
 70
     0
  0
ENDTAB
  0
TABLE
  2
UCS
  5
7
330
0
100
AcDbSymbolTable
 70
     0
  0
ENDTAB
  0
TABLE
  2
APPID
  5
9
330
0
100
AcDbSymbolTable
 70
     1
  0
APPID
  5
12
330
9
100
AcDbSymbolTableRecord
100
AcDbRegAppTableRecord
  2
ACAD
 70
     0
  0
ENDTAB
  0
TABLE
  2
DIMSTYLE
  5
A
330
0
100
AcDbSymbolTable
 70
     1
100
AcDbDimStyleTable
  0
DIMSTYLE
105
27
330
A
100
AcDbSymbolTableRecord
100
AcDbDimStyleTableRecord
  2
ISO-25
 70
     0
 41
2.5
 42
0.625
 43
3.75
 44
1.25
 73
     0
 74
     0
 77
     1
 78
     8
140
2.5
141
2.5
143
0.0393700787
147
0.625
171
     3
172
     1
178
     0
271
     2
272
     2
274
     3
278
    44
283
     0
284
     8
340
11
  0
ENDTAB
  0
TABLE
  2
BLOCK_RECORD
  5
1
330
0
100
AcDbSymbolTable
 70
     3
  0
BLOCK_RECORD
  5
1F
330
1
100
AcDbSymbolTableRecord
100
AcDbBlockTableRecord
  2
*Model_Space
340
22
  0
BLOCK_RECORD
  5
1B
330
1
100
AcDbSymbolTableRecord
100
AcDbBlockTableRecord
  2
*Paper_Space
340
1E
  0
BLOCK_RECORD
  5
23
330
1
100
AcDbSymbolTableRecord
100
AcDbBlockTableRecord
  2
*Paper_Space0
340
26
  0
BLOCK_RECORD
  5
88
330
1
100
AcDbSymbolTableRecord
100
AcDbBlockTableRecord
  2
SW_CENTERMARKSYMBOL_0
340
0
102
{BLKREFS
331
93
102
}
  0
BLOCK_RECORD
  5
B2
330
1
100
AcDbSymbolTableRecord
100
AcDbBlockTableRecord
  2
SW_CENTERMARKSYMBOL_1
340
0
102
{BLKREFS
331
BD
102
}
  0
ENDTAB
  0
ENDSEC
  0
SECTION
  2
BLOCKS
  0
BLOCK
  5
20
330
1F
100
AcDbEntity
  8
0
100
AcDbBlockBegin
  2
*Model_Space
 70
     0
 10
0.0
 20
0.0
 30
0.0
  3
*Model_Space
  1

  0
ENDBLK
  5
21
330
1F
100
AcDbEntity
  8
0
100
AcDbBlockEnd
  0
BLOCK
  5
1C
330
1B
100
AcDbEntity
 67
     1
  8
0
100
AcDbBlockBegin
  2
*Paper_Space
 70
     0
 10
0.0
 20
0.0
 30
0.0
  3
*Paper_Space
  1

  0
ENDBLK
  5
1D
330
1B
100
AcDbEntity
 67
     1
  8
0
100
AcDbBlockEnd
  0
BLOCK
  5
24
330
23
100
AcDbEntity
  8
0
100
AcDbBlockBegin
  2
*Paper_Space0
 70
     0
 10
0.0
 20
0.0
 30
0.0
  3
*Paper_Space0
  1

  0
ENDBLK
  5
25
330
23
100
AcDbEntity
  8
0
100
AcDbBlockEnd
  0
BLOCK
  5
89
330
88
100
AcDbEntity
  8
0
100
AcDbBlockBegin
  2
SW_CENTERMARKSYMBOL_0
 70
     0
 10
0.0
 20
0.0
 30
0.0
  3
SW_CENTERMARKSYMBOL_0
  1

  0
LINE
  5
8B
330
88
100
AcDbEntity
  8
FORMAT
 62
     0
100
AcDbLine
 10
0.0
 20
0.0
 30
0.0
 11
0.0
 21
2.5
 31
0.0
  0
LINE
  5
8C
330
88
100
AcDbEntity
  8
FORMAT
 62
     0
100
AcDbLine
 10
0.0
 20
0.0
 30
0.0
 11
-2.5
 21
0.0
 31
0.0
  0
LINE
  5
8D
330
88
100
AcDbEntity
  8
FORMAT
 62
     0
100
AcDbLine
 10
0.0
 20
0.0
 30
0.0
 11
0.0
 21
-2.5
 31
0.0
  0
LINE
  5
8E
330
88
100
AcDbEntity
  8
FORMAT
 62
     0
100
AcDbLine
 10
0.0
 20
0.0
 30
0.0
 11
2.5
 21
0.0
 31
0.0
  0
LINE
  5
8F
330
88
100
AcDbEntity
  8
FORMAT
 62
     0
100
AcDbLine
 10
0.0
 20
5.0
 30
0.0
 11
0.0
 21
160.0
 31
0.0
  0
LINE
  5
90
330
88
100
AcDbEntity
  8
FORMAT
 62
     0
100
AcDbLine
 10
-5.0
 20
0.0
 30
0.0
 11
-160.0
 21
0.0
 31
0.0
  0
LINE
  5
91
330
88
100
AcDbEntity
  8
FORMAT
 62
     0
100
AcDbLine
 10
0.0
 20
-5.0
 30
0.0
 11
0.0
 21
-160.0
 31
0.0
  0
LINE
  5
92
330
88
100
AcDbEntity
  8
FORMAT
 62
     0
100
AcDbLine
 10
5.0
 20
0.0
 30
0.0
 11
160.0
 21
0.0
 31
0.0
  0
ENDBLK
  5
8A
330
88
100
AcDbEntity
  8
0
100
AcDbBlockEnd
  0
BLOCK
  5
B3
330
B2
100
AcDbEntity
  8
0
100
AcDbBlockBegin
  2
SW_CENTERMARKSYMBOL_1
 70
     0
 10
0.0
 20
0.0
 30
0.0
  3
SW_CENTERMARKSYMBOL_1
  1

  0
LINE
  5
B5
330
B2
100
AcDbEntity
  8
FORMAT
 62
     0
100
AcDbLine
 10
0.0
 20
0.0
 30
0.0
 11
0.0
 21
2.5
 31
0.0
  0
LINE
  5
B6
330
B2
100
AcDbEntity
  8
FORMAT
 62
     0
100
AcDbLine
 10
0.0
 20
0.0
 30
0.0
 11
-2.5
 21
0.0
 31
0.0
  0
LINE
  5
B7
330
B2
100
AcDbEntity
  8
FORMAT
 62
     0
100
AcDbLine
 10
0.0
 20
0.0
 30
0.0
 11
0.0
 21
-2.5
 31
0.0
  0
LINE
  5
B8
330
B2
100
AcDbEntity
  8
FORMAT
 62
     0
100
AcDbLine
 10
0.0
 20
0.0
 30
0.0
 11
2.5
 21
0.0
 31
0.0
  0
LINE
  5
B9
330
B2
100
AcDbEntity
  8
FORMAT
 62
     0
100
AcDbLine
 10
0.0
 20
5.0
 30
0.0
 11
0.0
 21
57.5
 31
0.0
  0
LINE
  5
BA
330
B2
100
AcDbEntity
  8
FORMAT
 62
     0
100
AcDbLine
 10
-5.0
 20
0.0
 30
0.0
 11
-57.5
 21
0.0
 31
0.0
  0
LINE
  5
BB
330
B2
100
AcDbEntity
  8
FORMAT
 62
     0
100
AcDbLine
 10
0.0
 20
-5.0
 30
0.0
 11
0.0
 21
-57.5
 31
0.0
  0
LINE
  5
BC
330
B2
100
AcDbEntity
  8
FORMAT
 62
     0
100
AcDbLine
 10
5.0
 20
0.0
 30
0.0
 11
57.5
 21
0.0
 31
0.0
  0
ENDBLK
  5
B4
330
B2
100
AcDbEntity
  8
0
100
AcDbBlockEnd
  0
ENDSEC
  0
SECTION
  2
ENTITIES
  0
LINE
  5
83
330
1F
100
AcDbEntity
  8
0
  6
Continuous
 62
     7
370
    25
100
AcDbLine
 10
210.224105511
 20
61.4982790497
 30
0.0
 11
355.6158012652
 21
61.4982790497
 31
0.0
  0
LINE
  5
84
330
1F
100
AcDbEntity
  8
0
  6
Continuous
 62
     7
370
    25
100
AcDbLine
 10
355.6158012652
 20
171.4982790497
 30
0.0
 11
210.2249489501
 21
171.4982790497
 31
0.0
  0
CIRCLE
  5
85
330
1F
100
AcDbEntity
  8
0
  6
Continuous
 62
     7
370
    25
100
AcDbCircle
 10
62.6158012652
 20
116.4982790497
 30
0.0
 40
128.9
  0
CIRCLE
  5
86
330
1F
100
AcDbEntity
  8
0
  6
Continuous
 62
     7
370
    25
100
AcDbCircle
 10
62.6158012652
 20
116.4982790497
 30
0.0
 40
157.5
  0
LINE
  5
87
330
1F
100
AcDbEntity
  8
0
  6
Continuous
 62
     7
370
    25
100
AcDbLine
 10
355.6158012652
 20
171.4982790497
 30
0.0
 11
355.6158012652
 21
61.4982790497
 31
0.0
  0
INSERT
  5
93
330
1F
100
AcDbEntity
  8
FORMAT
100
AcDbBlockReference
  2
SW_CENTERMARKSYMBOL_0
 10
62.6158012652
 20
116.4982790497
 30
0.0
  0
LINE
  5
94
330
1F
100
AcDbEntity
  8
0
  6
Continuous
 62
     7
370
    25
100
AcDbLine
 10
-94.8841987348
 20
-179.4815214174
 30
0.0
 11
-94.8841987348
 21
-891.4815214174
 31
0.0
  0
LINE
  5
95
330
1F
100
AcDbEntity
  8
0
  6
Continuous
 62
     7
370
    25
100
AcDbLine
 10
220.1158012652
 20
-480.4866649454
 30
0.0
 11
220.1158012652
 21
-179.4815214174
 31
0.0
  0
LINE
  5
96
330
1F
100
AcDbEntity
  8
0
  6
Continuous
 62
     7
370
    25
100
AcDbLine
 10
220.1158012652
 20
-891.4815214174
 30
0.0
 11
220.1158012652
 21
-590.4815214174
 31
0.0
  0
LINE
  5
97
330
1F
100
AcDbEntity
  8
0
  6
Continuous
 62
     7
370
    25
100
AcDbLine
 10
220.1158012652
 20
-590.4815214174
 30
0.0
 11
355.6158012652
 21
-590.4815214174
 31
0.0
  0
LINE
  5
98
330
1F
100
AcDbEntity
  8
0
  6
Continuous
 62
     7
370
    25
100
AcDbLine
 10
355.6158012652
 20
-480.4815214174
 30
0.0
 11
220.1140073783
 21
-480.4815214174
 31
0.0
  0
LWPOLYLINE
  5
99
330
1F
100
AcDbEntity
  8
0
  6
Continuous
 62
     7
370
    25
100
AcDbPolyline
 90
       40
 70
   128
 43
0.0
 10
220.1140048986
 20
-480.4866649454
 10
220.0520027116
 20
-480.6641948964
 10
219.8562248921
 20
-481.2293249423
 10
219.5559568437
 20
-482.1056547756
 10
219.1513246323
 20
-483.3075808357
 10
218.6366315059
 20
-484.87257759
 10
218.0352115322
 20
-486.7583945908
 10
217.361016121
 20
-488.9536956808
 10
216.6314431527
 20
-491.4409952394
 10
215.8434003316
 20
-494.2814717097
 10
215.0357711761
 20
-497.3948147121
 10
214.2115821689
 20
-500.8403218066
 10
213.4110329005
 20
-504.5307236256
 10
212.6357484288
 20
-508.5614227705
 10
211.9329563474
 20
-512.8019534793
 10
211.3423673741
 20
-517.0891550802
 10
210.859628059
 20
-521.5179193581
 10
210.4919926659
 20
-526.2067251742
 10
210.269320534
 20
-530.9746652537
 10
210.2008170134
 20
-535.370649022
 10
210.2627418713
 20
-539.7674367641
 10
210.4619505651
 20
-544.2654360571
 10
210.7910061596
 20
-548.6967151547
 10
211.2150332489
 20
-552.8145545178
 10
211.7348172386
 20
-556.8176627014
 10
212.3536458106
 20
-560.7824630166
 10
213.0414789525
 20
-564.5785059297
 10
213.7956737723
 20
-568.2547439316
 10
214.5827292929
 20
-571.712684995
 10
215.4036391431
 20
-575.0146302628
 10
216.2159837394
 20
-578.0463667259
 10
217.0100964042
 20
-580.8285649246
 10
217.7519009046
 20
-583.2932293073
 10
218.4396848744
 20
-585.4800500567
 10
219.0303724892
 20
-587.2914441272
 10
219.4877064186
 20
-588.6564332525
 10
219.8271410679
 20
-589.649365777
 10
220.0427857004
 20
-590.2724197757
 10
220.1158012652
 20
-590.4815214174
 10
220.1158012652
 20
-590.4815214174
  0
LINE
  5
9A
330
1F
100
AcDbEntity
  8
0
  6
Continuous
 62
     7
370
    25
100
AcDbLine
 10
220.1158012652
 20
-891.4815214174
 30
0.0
 11
-94.8841987348
 21
-891.4815214174
 31
0.0
  0
LINE
  5
9B
330
1F
100
AcDbEntity
  8
0
  6
Continuous
 62
     7
370
    25
100
AcDbLine
 10
220.1158012652
 20
-179.4815214174
 30
0.0
 11
-94.8841987348
 21
-179.4815214174
 31
0.0
  0
LINE
  5
9C
330
1F
100
AcDbEntity
  8
0
  6
Continuous
 62
     7
370
    25
100
AcDbLine
 10
355.6158012652
 20
-480.4815214174
 30
0.0
 11
355.6158012652
 21
-590.4815214174
 31
0.0
  0
LINE
  5
9D
330
1F
100
AcDbEntity
  8
0
  6
Continuous
 62
     7
370
    25
100
AcDbLine
 10
220.1158012652
 20
818.741961714
 30
0.0
 11
220.1158012652
 21
1119.741961714
 31
0.0
  0
LINE
  5
9E
330
1F
100
AcDbEntity
  8
0
  6
Continuous
 62
     7
370
    25
100
AcDbLine
 10
220.1158012652
 20
407.741961714
 30
0.0
 11
220.1158012652
 21
708.7470732138
 31
0.0
  0
LINE
  5
9F
330
1F
100
AcDbEntity
  8
0
  6
Continuous
 62
     7
370
    25
100
AcDbLine
 10
-94.8841987348
 20
1119.741961714
 30
0.0
 11
-94.8841987348
 21
407.741961714
 31
0.0
  0
LINE
  5
A0
330
1F
100
AcDbEntity
  8
0
  6
Continuous
 62
     7
370
    25
100
AcDbLine
 10
220.1140212333
 20
708.741961714
 30
0.0
 11
355.6158012652
 21
708.741961714
 31
0.0
  0
LINE
  5
A1
330
1F
100
AcDbEntity
  8
0
  6
Continuous
 62
     7
370
    25
100
AcDbLine
 10
355.6158012652
 20
818.741961714
 30
0.0
 11
220.1158012652
 21
818.741961714
 31
0.0
  0
SPLINE
  5
A2
330
1F
100
AcDbEntity
  8
0
  6
Continuous
 62
     7
370
    25
100
AcDbSpline
210
0.0
220
0.0
230
1.0
 70
     8
 71
     3
 72
    46
 73
    42
 74
     0
 42
0.000000001
 43
0.00000001
 40
0.0
 40
0.0
 40
0.0
 40
0.0
 40
0.0252969693051872
 40
0.0507776144577411
 40
0.0768320759139333
 40
0.1030815112069092
 40
0.1283769490768203
 40
0.1538417081491939
 40
0.1798261650796054
 40
0.2059846132432306
 40
0.2321451500785329
 40
0.2584769769236606
 40
0.2853452274600711
 40
0.3123990910897759
 40
0.3393398889378919
 40
0.3664753998207114
 40
0.3942433372567919
 40
0.4222390585006928
 40
0.4481704047944463
 40
0.4742982758338503
 40
0.5010571667109882
 40
0.5280376541539895
 40
0.55270437120717
 40
0.5775410612351749
 40
0.6029019236794041
 40
0.6284384104466536
 40
0.6535668914631151
 40
0.6788558592297554
 40
0.704636994336391
 40
0.7305835237058774
 40
0.7571339135258364
 40
0.7838625540837182
 40
0.8111568061496175
 40
0.8386498637099937
 40
0.8654560934938572
 40
0.8924608692929743
 40
0.9201102313795709
 40
0.9479905232715018
 40
0.973538876710354
 40
0.99927587719954
 40
1.0
 40
1.0
 40
1.0
 40
1.0
 10
220.1158012651658
 20
818.7419617139611
 30
0.0
 10
220.1039055373576
 20
818.7079445600336
 30
0.0
 10
220.0800277094229
 20
818.6396632609479
 30
0.0
 10
219.8865247041915
 20
818.0832964073844
 30
0.0
 10
219.5775306921811
 20
817.1842376384467
 30
0.0
 10
219.1515895705368
 20
815.922484187401
 30
0.0
 10
218.6282506540755
 20
814.3336816190547
 30
0.0
 10
218.0201693860101
 20
812.4302526981604
 30
0.0
 10
217.3321499590309
 20
810.1925025151238
 30
0.0
 10
216.5808323353497
 20
807.6308211247447
 30
0.0
 10
215.7878235161765
 20
804.7688404311696
 30
0.0
 10
214.9691885623433
 20
801.6065684550523
 30
0.0
 10
214.1440449214956
 20
798.1466370222979
 30
0.0
 10
213.3382929251929
 20
794.4138596574784
 30
0.0
 10
212.5787248045553
 20
790.4436713640515
 30
0.0
 10
211.8844378161813
 20
786.2357933236394
 30
0.0
 10
211.2773624893853
 20
781.7932724790584
 30
0.0
 10
210.7958690140687
 20
777.2665963822666
 30
0.0
 10
210.451162654151
 20
772.7242372890545
 30
0.0
 10
210.2434998078146
 20
768.1826003144046
 30
0.0
 10
210.1758384816091
 20
763.5445293508368
 30
0.0
 10
210.2542408798466
 20
758.9926522638398
 30
0.0
 10
210.4637837520316
 20
754.5894304524571
 30
0.0
 10
210.78755197415
 20
750.3429606483191
 30
0.0
 10
211.2270535695607
 20
746.1410200726332
 30
0.0
 10
211.7690314430726
 20
742.0460178376552
 30
0.0
 10
212.3951067913477
 20
738.1026442814136
 30
0.0
 10
213.0906754756572
 20
734.3164907838442
 30
0.0
 10
213.8441802968766
 20
730.6847998175467
 30
0.0
 10
214.6417761127031
 20
727.2150228909693
 30
0.0
 10
215.4605633035261
 20
723.9503694527085
 30
0.0
 10
216.2830533067309
 20
720.9052115670809
 30
0.0
 10
217.0823770983197
 20
718.1262883613329
 30
0.0
 10
217.8270016012952
 20
715.6709194698536
 30
0.0
 10
218.4933590485583
 20
713.5657102263214
 30
0.0
 10
219.068030962431
 20
711.8114203834235
 30
0.0
 10
219.5363893015303
 20
710.4198439500574
 30
0.0
 10
219.8744946386616
 20
709.4354334491231
 30
0.0
 10
220.0602185165455
 20
708.9009899126122
 30
0.0
 10
220.136259372293
 20
708.6832939466417
 30
0.0
 10
220.1146112166473
 20
708.7453743503742
 30
0.0
 10
220.1140188032824
 20
708.747073213847
 30
0.0
  0
LINE
  5
A3
330
1F
100
AcDbEntity
  8
0
  6
Continuous
 62
     7
370
    25
100
AcDbLine
 10
-94.8841987348
 20
1119.741961714
 30
0.0
 11
220.1158012652
 21
1119.741961714
 31
0.0
  0
LINE
  5
A4
330
1F
100
AcDbEntity
  8
0
  6
Continuous
 62
     7
370
    25
100
AcDbLine
 10
-94.8841987348
 20
407.741961714
 30
0.0
 11
220.1158012652
 21
407.741961714
 31
0.0
  0
LINE
  5
A5
330
1F
100
AcDbEntity
  8
0
  6
Continuous
 62
     7
370
    25
100
AcDbLine
 10
355.6158012652
 20
818.741961714
 30
0.0
 11
355.6158012652
 21
708.741961714
 31
0.0
  0
LINE
  5
A6
330
1F
100
AcDbEntity
  8
0
  6
Continuous
 62
     7
370
    25
100
AcDbLine
 10
546.8118270639
 20
-41.0017209503
 30
0.0
 11
1258.8118270639
 21
-41.0017209503
 31
0.0
  0
LINE
  5
A7
330
1F
100
AcDbEntity
  8
0
  6
Continuous
 62
     7
370
    25
100
AcDbLine
 10
1258.8118270639
 20
273.9982790497
 30
0.0
 11
546.8118270639
 21
273.9982790497
 31
0.0
  0
LINE
  5
A8
330
1F
100
AcDbEntity
  8
0
  6
Continuous
 62
     7
370
    25
100
AcDbLine
 10
1258.8118270639
 20
273.9982790497
 30
0.0
 11
1258.8118270639
 21
-41.0017209503
 31
0.0
  0
LINE
  5
A9
330
1F
100
AcDbEntity
  8
0
  6
Continuous
 62
     7
370
    25
100
AcDbLine
 10
546.8118270639
 20
273.9982790497
 30
0.0
 11
546.8118270639
 21
-41.0017209503
 31
0.0
  0
LINE
  5
AA
330
1F
100
AcDbEntity
  8
0
  6
Continuous
 62
     7
370
    25
100
AcDbLine
 10
-265.2841496907
 20
273.9982790497
 30
0.0
 11
-977.2841496907
 21
273.9982790497
 31
0.0
  0
LINE
  5
AB
330
1F
100
AcDbEntity
  8
0
  6
Continuous
 62
     7
370
    25
100
AcDbLine
 10
-977.2841496907
 20
-41.0017209503
 30
0.0
 11
-265.2841496907
 21
-41.0017209503
 31
0.0
  0
CIRCLE
  5
AC
330
1F
100
AcDbEntity
  8
0
  6
Continuous
 62
     7
370
    25
100
AcDbCircle
 10
-621.2841496907
 20
116.4982790497
 30
0.0
 40
45.0
  0
CIRCLE
  5
AD
330
1F
100
AcDbEntity
  8
0
  6
Continuous
 62
     7
370
    25
100
AcDbCircle
 10
-621.2841496907
 20
116.4982790497
 30
0.0
 40
55.0
  0
LINE
  5
AE
330
1F
100
AcDbEntity
  8
0
  6
Continuous
 62
     7
370
    25
100
AcDbLine
 10
-977.2841496907
 20
116.4982790497
 30
0.0
 11
-977.2841496907
 21
273.9982790497
 31
0.0
  0
LINE
  5
AF
330
1F
100
AcDbEntity
  8
0
  6
Continuous
 62
     7
370
    25
100
AcDbLine
 10
-977.2841496907
 20
-41.0017209503
 30
0.0
 11
-977.2841496907
 21
116.4982790497
 31
0.0
  0
LINE
  5
B0
330
1F
100
AcDbEntity
  8
0
  6
Continuous
 62
     7
370
    25
100
AcDbLine
 10
-265.2841496907
 20
116.4982790497
 30
0.0
 11
-265.2841496907
 21
273.9982790497
 31
0.0
  0
LINE
  5
B1
330
1F
100
AcDbEntity
  8
0
  6
Continuous
 62
     7
370
    25
100
AcDbLine
 10
-265.2841496907
 20
-41.0017209503
 30
0.0
 11
-265.2841496907
 21
116.4982790497
 31
0.0
  0
INSERT
  5
BD
330
1F
100
AcDbEntity
  8
FORMAT
100
AcDbBlockReference
  2
SW_CENTERMARKSYMBOL_1
 10
-621.2841496907
 20
116.4982790497
 30
0.0
  0
LINE
  5
BE
330
1F
100
AcDbEntity
  8
0
  6
Continuous
 62
     7
370
    25
100
AcDbLine
 10
1189.1285655618
 20
-527.1527618135
 30
0.0
 11
1071.1722219827
 21
-459.0580141027
 31
0.0
  0
LINE
  5
BF
330
1F
100
AcDbEntity
  8
0
  6
Continuous
 62
     7
370
    25
100
AcDbLine
 10
961.1632818461
 20
-395.5512047423
 30
0.0
 11
685.668537357
 21
-236.5114740046
 31
0.0
  0
LINE
  5
C0
330
1F
100
AcDbEntity
  8
0
  6
Continuous
 62
     7
370
    25
100
AcDbLine
 10
528.1813369668
 20
-509.3168656545
 30
0.0
 11
1031.6413651716
 21
-799.9581534634
 31
0.0
  0
LINE
  5
C1
330
1F
100
AcDbEntity
  8
0
  6
Continuous
 62
     7
370
    25
100
AcDbLine
 10
994.0728032126
 20
-503.5665611676
 30
0.0
 11
1093.3350032995
 21
-446.2637127829
 31
0.0
  0
LINE
  5
C2
330
1F
100
AcDbEntity
  8
0
  6
Continuous
 62
     7
370
    25
100
AcDbLine
 10
1038.3394730045
 20
-350.998337921
 30
0.0
 11
939.0773386256
 21
-408.3011483734
 31
0.0
  0
SPLINE
  5
C3
330
1F
100
AcDbEntity
  8
0
  6
Continuous
 62
     7
370
    25
100
AcDbSpline
210
0.0
220
0.0
230
1.0
 70
     8
 71
     3
 72
    36
 73
    32
 74
     0
 42
0.000000001
 43
0.00000001
 40
0.0
 40
0.0
 40
0.0
 40
0.0
 40
0.0337278538634883
 40
0.068082657858029
 40
0.1024381340469499
 40
0.1374358883976673
 40
0.1711617004345411
 40
0.2054591156469486
 40
0.2397575462081154
 40
0.2746339895604608
 40
0.3095132176896008
 40
0.3449783719395266
 40
0.3804434704703627
 40
0.416513750191907
 40
0.4524332819676251
 40
0.4886124200503503
 40
0.5256347575737059
 40
0.5629607938876142
 40
0.597534447661226
 40
0.6327908740344095
 40
0.6680467952182069
 40
0.7040192441967741
 40
0.7369067975643268
 40
0.7703697829589026
 40
0.8038337893411239
 40
0.8378809862002388
 40
0.8713841985933876
 40
0.9054289987574355
 40
0.9394746141256506
 40
0.9740685111368351
 40
1.0
 40
1.0
 40
1.0
 40
1.0
 10
931.1333963359311
 20
-431.4914518528353
 30
0.0
 10
931.1490342984088
 20
-432.7094867405127
 30
0.0
 10
931.1806009095919
 20
-435.1681979544701
 30
0.0
 10
931.4384288467376
 20
-439.0920738687781
 30
0.0
 10
931.8563893392619
 20
-443.1930134471957
 30
0.0
 10
932.4452925686655
 20
-447.3850907844911
 30
0.0
 10
933.2011543084552
 20
-451.6504126917671
 30
0.0
 10
934.1181611878142
 20
-455.9313145393452
 30
0.0
 10
935.214632505635
 20
-460.2726575733566
 30
0.0
 10
936.4905866963513
 20
-464.6192109746668
 30
0.0
 10
937.9584675750632
 20
-468.9623484064028
 30
0.0
 10
939.6168846170783
 20
-473.2446265203261
 30
0.0
 10
941.4806273192897
 20
-477.4558918021872
 30
0.0
 10
943.5435565570518
 20
-481.5308574898783
 30
0.0
 10
945.8137864191731
 20
-485.4430091510915
 30
0.0
 10
948.2982792967938
 20
-489.1636603000226
 30
0.0
 10
951.0103348513284
 20
-492.6650148493472
 30
0.0
 10
953.8707572046388
 20
-495.8129680922348
 30
0.0
 10
956.8504860378229
 20
-498.5905205597443
 30
0.0
 10
959.9165212838587
 20
-500.9838702911895
 30
0.0
 10
963.1483244498817
 20
-503.0514002321735
 30
0.0
 10
966.4094044061784
 20
-504.6990621294759
 30
0.0
 10
969.6821841085406
 20
-505.9532685537791
 30
0.0
 10
972.9142525834935
 20
-506.8269523794392
 30
0.0
 10
976.1959536890636
 20
-507.3553336794906
 30
0.0
 10
979.4636396302654
 20
-507.5257367275381
 30
0.0
 10
982.7048469008654
 20
-507.3436159927953
 30
0.0
 10
985.8747606936665
 20
-506.8192907991805
 30
0.0
 10
988.970162481607
 20
-505.9401981654182
 30
0.0
 10
991.7213089647878
 20
-504.8633491253486
 30
0.0
 10
993.3548447060172
 20
-503.933006837534
 30
0.0
 10
994.0547165576268
 20
-503.5344111024243
 30
0.0
  0
SPLINE
  5
C4
330
1F
100
AcDbEntity
  8
0
  6
Continuous
 62
     7
370
    25
100
AcDbSpline
210
0.0
220
0.0
230
1.0
 70
     8
 71
     3
 72
    17
 73
    13
 74
     0
 42
0.000000001
 43
0.00000001
 40
0.0
 40
0.0
 40
0.0
 40
0.0
 40
0.021125176761974
 40
0.1278895646601123
 40
0.2355800545080901
 40
0.3440319392847137
 40
0.4549396997540311
 40
0.5667250828851973
 40
0.6728850591709312
 40
0.7811755095809435
 40
0.8894633623419981
 40
0.9999999999999999
 40
0.9999999999999999
 40
0.9999999999999999
 40
0.9999999999999999
 10
939.0917864467649
 20
-408.3270138870384
 30
0.0
 10
938.9748206026954
 20
-408.3838988528613
 30
0.0
 10
938.2667218707086
 20
-408.7282743625564
 30
0.0
 10
937.1435840893595
 20
-409.6842382650696
 30
0.0
 10
935.7304268517411
 20
-411.2231505612649
 30
0.0
 10
934.5050176973075
 20
-413.152507911641
 30
0.0
 10
933.4528589579561
 20
-415.4442630243735
 30
0.0
 10
932.6033651895365
 20
-418.0637908506916
 30
0.0
 10
931.947114871547
 20
-420.9791982247962
 30
0.0
 10
931.4846181290571
 20
-424.1637423406094
 30
0.0
 10
931.1888325664066
 20
-427.6544313618788
 30
0.0
 10
931.1520012470722
 20
-430.2037123245812
 30
0.0
 10
931.1333963359311
 20
-431.4914518528353
 30
0.0
  0
LWPOLYLINE
  5
C5
330
1F
100
AcDbEntity
  8
0
  6
Continuous
 62
     7
370
    25
100
AcDbPolyline
 90
      134
 70
   128
 43
0.0
 10
718.2942551988
 20
-308.6220310235
 10
718.1700009505
 20
-302.6204559928
 10
717.7975154656
 20
-296.7757337241
 10
717.1776299048
 20
-291.1009060782
 10
716.3117274751
 20
-285.6086358146
 10
715.2017403436
 20
-280.3111783358
 10
713.8501453254
 20
-275.220354341
 10
712.2599583576
 20
-270.347523449
 10
710.4347277692
 20
-265.703558851
 10
708.3785263631
 20
-261.2988230478
 10
706.095942329
 20
-257.1431447275
 10
703.5920690041
 20
-253.2457968334
 10
700.8724935091
 20
-249.6154758724
 10
697.9432842802
 20
-246.2602825102
 10
694.8109775287
 20
-243.1877034953
 10
691.4825626556
 20
-240.4045949527
 10
687.9654666561
 20
-237.917167086
 10
684.2675375466
 20
-235.7309703192
 10
680.3970268529
 20
-233.8508829124
 10
676.3625711979
 20
-232.2811000756
 10
672.1731730296
 20
-231.0251246081
 10
667.8381805335
 20
-230.0857590824
 10
663.367266773
 20
-229.4650995902
 10
658.770408105
 20
-229.1645310657
 10
654.0578619184
 20
-229.1847241945
 10
649.2401437467
 20
-229.5256339181
 10
644.3280038029
 20
-230.1864995335
 10
639.332402992
 20
-231.1658463911
 10
634.2644884527
 20
-232.4614891851
 10
629.1355686841
 20
-234.0705368299
 10
623.9570883118
 20
-235.9893989109
 10
618.7406025502
 20
-238.2137936965
 10
613.497751419
 20
-240.7387576922
 10
608.2402337691
 20
-243.558656716
 10
602.9797811781
 20
-246.6671984705
 10
597.7281317727
 20
-250.0574465836
 10
592.4970040364
 20
-253.721836086
 10
587.2980706604
 20
-257.6521902919
 10
582.1429324983
 20
-261.8397390442
 10
577.0430926788
 20
-266.2751382842
 10
572.0099309389
 20
-270.948490902
 10
567.0546782304
 20
-275.8493688203
 10
562.1883916598
 20
-280.9668362642
 10
557.4219298152
 20
-286.2894741628
 10
552.7659285368
 20
-291.8054056297
 10
548.230777184
 20
-297.5023224648
 10
543.8265954529
 20
-303.3675126193
 10
539.5632107951
 20
-309.3878885602
 10
535.4501364888
 20
-315.5500164749
 10
531.496550411
 20
-321.8401462465
 10
527.7112745583
 20
-328.2442421357
 10
524.1027553612
 20
-334.7480141007
 10
520.6790448371
 20
-341.3369496828
 10
517.4477826229
 20
-347.9963463906
 10
514.416178928
 20
-354.7113445059
 10
511.5909984459
 20
-361.4669602421
 10
508.9785452587
 20
-368.2481191791
 10
506.5846487711
 20
-375.0396898997
 10
504.4146507023
 20
-381.8265177538
 10
502.4733931665
 20
-388.5934586748
 10
500.7652078682
 20
-395.3254129714
 10
499.2939064369
 20
-402.0073590212
 10
498.0627719213
 20
-408.6243867899
 10
497.074551464
 20
-415.161731101
 10
496.3314501711
 20
-421.6048045832
 10
495.8351261923
 20
-427.93923022
 10
495.5866870205
 20
-434.1508734311
 10
495.5866870205
 20
-440.2258736115
 10
495.8351261923
 20
-446.1506750604
 10
496.3314501711
 20
-451.9120572289
 10
497.074551464
 20
-457.4971642207
 10
498.0627719213
 20
-462.8935334781
 10
499.2939064369
 20
-468.0891235912
 10
500.7652078682
 20
-473.0723411669
 10
502.4733931665
 20
-477.8320666982
 10
504.4146507023
 20
-482.3576793763
 10
506.5846487711
 20
-486.6390807896
 10
508.9785452587
 20
-490.6667174576
 10
511.5909984459
 20
-494.4316021479
 10
514.416178928
 20
-497.9253339307
 10
517.4477826229
 20
-501.140116924
 10
520.6790448371
 20
-504.0687776902
 10
524.1027553612
 20
-506.7047812417
 10
527.7112745583
 20
-509.0422456241
 10
531.496550411
 20
-511.0759550401
 10
535.4501364888
 20
-512.8013714889
 10
539.5632107951
 20
-514.2146448917
 10
543.8265954529
 20
-515.312621683
 10
548.230777184
 20
-516.0928518471
 10
552.7659285368
 20
-516.5535943855
 10
557.4219298152
 20
-516.6938212014
 10
562.1883916598
 20
-516.513219394
 10
567.0546782304
 20
-516.0121919565
 10
572.0099309389
 20
-515.191856877
 10
577.0430926788
 20
-514.054044644
 10
582.1429324983
 20
-512.6012941613
 10
587.2980706604
 20
-510.8368470833
 10
592.4970040364
 20
-508.7646405815
 10
597.7281317727
 20
-506.3892985588
 10
602.9797811781
 20
-503.7161213321
 10
608.2402337691
 20
-500.751073805
 10
613.497751419
 20
-497.500772158
 10
618.7406025502
 20
-493.972469085
 10
623.9570883118
 20
-490.1740376098
 10
629.1355686841
 20
-486.1139535183
 10
634.2644884527
 20
-481.8012764457
 10
639.332402992
 20
-477.2456296609
 10
644.3280038029
 20
-472.4571785932
 10
649.2401437467
 20
-467.4466081494
 10
654.0578619184
 20
-462.2250988714
 10
658.770408105
 20
-456.804301988
 10
663.367266773
 20
-451.1963134169
 10
667.8381805335
 20
-445.4136467733
 10
672.1731730296
 20
-439.4692054477
 10
676.3625711979
 20
-433.376253813
 10
680.3970268529
 20
-427.148387627
 10
684.2675375466
 20
-420.7995036942
 10
687.9654666561
 20
-414.3437688574
 10
691.4825626556
 20
-407.7955883851
 10
694.8109775287
 20
-401.1695738287
 10
697.9432842802
 20
-394.4805104174
 10
700.8724935091
 20
-387.7433240673
 10
703.5920690041
 20
-380.9730480756
 10
706.095942329
 20
-374.1847895753
 10
708.3785263631
 20
-367.3936958256
 10
710.4347277692
 20
-360.6149204119
 10
712.2599583576
 20
-353.863589433
 10
713.8501453254
 20
-347.1547677482
 10
715.2017403436
 20
-340.5034253619
 10
716.3117274752
 20
-333.9244040199
 10
717.1776299048
 20
-327.4323840913
 10
717.7975154656
 20
-321.0418518111
 10
718.1700009505
 20
-314.7670669556
 10
718.2942551988
 20
-308.6220310235
  0
LWPOLYLINE
  5
C6
330
1F
100
AcDbEntity
  8
0
  6
Continuous
 62
     7
370
    25
100
AcDbPolyline
 90
       18
 70
   128
 43
0.0
 10
1221.7542834036
 20
-599.2633188324
 10
1221.6300291554
 20
-593.2617438017
 10
1221.2575436704
 20
-587.417021533
 10
1220.6376581096
 20
-581.7421938871
 10
1219.77175568
 20
-576.2499236235
 10
1218.6617685484
 20
-570.9524661447
 10
1217.3101735302
 20
-565.8616421499
 10
1215.7199865624
 20
-560.9888112579
 10
1213.894755974
 20
-556.3448466599
 10
1211.838554568
 20
-551.9401108567
 10
1209.5559705338
 20
-547.7844325364
 10
1207.0520972089
 20
-543.8870846422
 10
1204.3325217139
 20
-540.2567636813
 10
1201.403312485
 20
-536.9015703191
 10
1198.2710057335
 20
-533.8289913042
 10
1194.9425908604
 20
-531.0458827616
 10
1191.4254948609
 20
-528.5584548948
 10
1189.1285655618
 20
-527.1527618135
  0
LWPOLYLINE
  5
C7
330
1F
100
AcDbEntity
  8
0
  6
Continuous
 62
     7
370
    25
100
AcDbPolyline
 90
       51
 70
   128
 43
0.0
 10
1031.6413651716
 20
-799.9581534634
 10
1034.9565786158
 20
-801.717242849
 10
1038.9101646936
 20
-803.4426592978
 10
1043.0232389999
 20
-804.8559327006
 10
1047.2866236578
 20
-805.9539094919
 10
1051.6908053888
 20
-806.734139656
 10
1056.2259567416
 20
-807.1948821944
 10
1060.88195802
 20
-807.3351090103
 10
1065.6484198646
 20
-807.1545072029
 10
1070.5147064352
 20
-806.6534797654
 10
1075.4699591437
 20
-805.8331446859
 10
1080.5031208836
 20
-804.6953324528
 10
1085.6029607031
 20
-803.2425819701
 10
1090.7580988653
 20
-801.4781348922
 10
1095.9570322412
 20
-799.4059283904
 10
1101.1881599775
 20
-797.0305863677
 10
1106.4398093829
 20
-794.3574091409
 10
1111.7002619739
 20
-791.3923616139
 10
1116.9577796238
 20
-788.1420599669
 10
1122.200630755
 20
-784.6137568939
 10
1127.4171165166
 20
-780.8153254187
 10
1132.595596889
 20
-776.7552413272
 10
1137.7245166575
 20
-772.4425642546
 10
1142.7924311968
 20
-767.8869174698
 10
1147.7880320077
 20
-763.0984664021
 10
1152.7001719515
 20
-758.0878959583
 10
1157.5178901233
 20
-752.8663866803
 10
1162.2304363098
 20
-747.4455897969
 10
1166.8272949779
 20
-741.8376012258
 10
1171.2982087383
 20
-736.0549345822
 10
1175.6332012344
 20
-730.1104932565
 10
1179.8225994027
 20
-724.0175416219
 10
1183.8570550577
 20
-717.7896754359
 10
1187.7275657514
 20
-711.4407915031
 10
1191.4254948609
 20
-704.9850566662
 10
1194.9425908604
 20
-698.436876194
 10
1198.2710057335
 20
-691.8108616376
 10
1201.403312485
 20
-685.1217982263
 10
1204.3325217139
 20
-678.3846118762
 10
1207.052097209
 20
-671.6143358845
 10
1209.5559705338
 20
-664.8260773842
 10
1211.838554568
 20
-658.0349836344
 10
1213.894755974
 20
-651.2562082208
 10
1215.7199865624
 20
-644.5048772419
 10
1217.3101735302
 20
-637.7960555571
 10
1218.6617685484
 20
-631.1447131708
 10
1219.77175568
 20
-624.5656918288
 10
1220.6376581096
 20
-618.0736719002
 10
1221.2575436704
 20
-611.6831396199
 10
1221.6300291554
 20
-605.4083547645
 10
1221.7542834036
 20
-599.2633188324
  0
LWPOLYLINE
  5
C8
330
1F
100
AcDbEntity
  8
0
  6
Continuous
 62
     7
370
    25
100
AcDbPolyline
 90
      121
 70
   128
 43
0.0
 10
698.0710012568
 20
-320.2966670226
 10
697.9460887437
 20
-314.8603076239
 10
697.571693581
 20
-309.5830698263
 10
696.9488419596
 20
-304.4794181717
 10
696.0792410727
 20
-299.5633414145
 10
694.9652744358
 20
-294.8483141795
 10
693.6099953541
 20
-290.3472600285
 10
692.0171185532
 20
-286.0725160381
 10
690.1910099978
 20
-282.0357989845
 10
688.1366749246
 20
-278.2481732285
 10
685.8597441231
 20
-274.720020389
 10
683.3664585024
 20
-271.4610108877
 10
680.6636519851
 20
-268.4800774432
 10
677.758732776
 20
-265.7853905868
 10
674.6596630567
 20
-263.3843362678
 10
671.3749371619
 20
-261.2834956094
 10
667.913558297
 20
-259.4886268696
 10
664.2850138608
 20
-258.0046496589
 10
660.4992494414
 20
-256.8356314558
 10
656.566641556
 20
-255.9847764578
 10
652.4979692094
 20
-255.4544167994
 10
648.3043843497
 20
-255.2460061596
 10
643.9973813014
 20
-255.3601157773
 10
639.5887652607
 20
-255.7964328861
 10
635.0906199376
 20
-256.5537615712
 10
630.5152744358
 20
-257.6300260471
 10
625.8752694593
 20
-259.0222763479
 10
621.1833229391
 20
-260.7266964121
 10
616.4522951746
 20
-262.738614543
 10
611.6951535841
 20
-265.0525162126
 10
606.9249371619
 20
-267.6620591775
 10
602.1547207397
 20
-270.5600908617
 10
597.3975791492
 20
-273.7386679617
 10
592.6665513847
 20
-277.1890782188
 10
587.9746048645
 20
-280.9018642983
 10
583.334599888
 20
-284.8668497115
 10
578.7592543862
 20
-289.073166709
 10
574.2611090631
 20
-293.5092860684
 10
569.8524930223
 20
-298.1630486948
 10
565.5454899741
 20
-303.0216989483
 10
561.3519051144
 20
-308.0719196064
 10
557.2832327678
 20
-313.2998683652
 10
553.3506248824
 20
-318.6912157806
 10
549.564860463
 20
-324.231184544
 10
545.9363160268
 20
-329.9045899862
 10
542.4749371619
 20
-335.6958816972
 10
539.1902112671
 20
-341.5891861489
 10
536.0911415478
 20
-347.5683502036
 10
533.1862223387
 20
-353.616985388
 10
530.4834158214
 20
-359.7185128137
 10
527.9901302007
 20
-365.8562086181
 10
525.7131993992
 20
-372.0132498035
 10
523.658864326
 20
-378.1727603481
 10
521.8327557706
 20
-384.3178574616
 10
520.2398789697
 20
-390.43169786
 10
518.884599888
 20
-396.4975239317
 10
517.7706332511
 20
-402.498709669
 10
516.9010323642
 20
-408.418806239
 10
516.2781807428
 20
-414.2415870686
 10
515.9037855801
 20
-419.9510923201
 10
515.778873067
 20
-425.5316726365
 10
515.9037855801
 20
-430.9680320352
 10
516.2781807428
 20
-436.2452698328
 10
516.9010323642
 20
-441.3489214874
 10
517.7706332511
 20
-446.2649982446
 10
518.884599888
 20
-450.9800254796
 10
520.2398789697
 20
-455.4810796306
 10
521.8327557706
 20
-459.755823621
 10
523.658864326
 20
-463.7925406746
 10
525.7131993992
 20
-467.5801664306
 10
527.9901302007
 20
-471.1083192701
 10
530.4834158214
 20
-474.3673287714
 10
533.1862223387
 20
-477.3482622159
 10
536.0911415478
 20
-480.0429490723
 10
539.1902112671
 20
-482.4440033913
 10
542.4749371619
 20
-484.5448440497
 10
545.9363160268
 20
-486.3397127895
 10
549.564860463
 20
-487.8236900002
 10
553.3506248824
 20
-488.9927082033
 10
557.2832327678
 20
-489.8435632013
 10
561.3519051144
 20
-490.3739228597
 10
565.5454899741
 20
-490.5823334995
 10
569.8524930224
 20
-490.4682238818
 10
574.2611090631
 20
-490.031906773
 10
578.7592543862
 20
-489.274578088
 10
583.334599888
 20
-488.198313612
 10
587.9746048645
 20
-486.8060633113
 10
592.6665513847
 20
-485.101643247
 10
597.3975791492
 20
-483.0897251162
 10
602.1547207397
 20
-480.7758234465
 10
606.9249371619
 20
-478.1662804816
 10
611.6951535841
 20
-475.2682487975
 10
616.4522951746
 20
-472.0896716974
 10
621.1833229391
 20
-468.6392614403
 10
625.8752694593
 20
-464.9264753608
 10
630.5152744358
 20
-460.9614899476
 10
635.0906199376
 20
-456.7551729501
 10
639.5887652607
 20
-452.3190535907
 10
643.9973813014
 20
-447.6652909643
 10
648.3043843497
 20
-442.8066407108
 10
652.4979692094
 20
-437.7564200527
 10
656.566641556
 20
-432.5284712939
 10
660.4992494414
 20
-427.1371238785
 10
664.2850138608
 20
-421.5971551151
 10
667.913558297
 20
-415.9237496729
 10
671.3749371619
 20
-410.1324579619
 10
674.6596630567
 20
-404.2391535102
 10
677.758732776
 20
-398.2599894555
 10
680.6636519851
 20
-392.2113542711
 10
683.3664585024
 20
-386.1098268454
 10
685.8597441231
 20
-379.9721310411
 10
688.1366749246
 20
-373.8150898556
 10
690.1910099978
 20
-367.655579311
 10
692.0171185532
 20
-361.5104821975
 10
693.6099953541
 20
-355.3966417991
 10
694.9652744358
 20
-349.3308157275
 10
696.0792410727
 20
-343.3296299901
 10
696.9488419596
 20
-337.4095334201
 10
697.571693581
 20
-331.5867525906
 10
697.9460887437
 20
-325.877247339
 10
698.0710012568
 20
-320.2966670226
  0
LWPOLYLINE
  5
C9
330
1F
100
AcDbEntity
  8
0
  6
Continuous
 62
     7
370
    25
100
AcDbPolyline
 90
       72
 70
   128
 43
0.0
 10
1097.6570433054
 20
-417.000207868
 10
1097.5325267463
 20
-413.6808576821
 10
1097.1599515798
 20
-410.243722153
 10
1096.5422337119
 20
-406.7157015263
 10
1095.6842076224
 20
-403.124407347
 10
1094.5925885288
 20
-399.4979463612
 10
1093.2759198305
 20
-395.864700543
 10
1091.7445062453
 20
-392.2531049673
 10
1090.010333161
 20
-388.691425266
 10
1088.0869728331
 20
-385.207536412
 10
1085.989478164
 20
-381.8287045592
 10
1083.7342648934
 20
-378.5813736481
 10
1081.3389831228
 20
-375.4909584458
 10
1078.8223791798
 20
-372.5816456416
 10
1076.2041489024
 20
-369.8762045526
 10
1073.5047834924
 20
-367.3958089236
 10
1070.745409144
 20
-365.1598712135
 10
1067.9476217029
 20
-363.1858906663
 10
1065.1333176492
 20
-361.4893163564
 10
1062.3245227277
 20
-360.0834262779
 10
1059.5432195672
 20
-358.979223427
 10
1056.8111756359
 20
-358.185349688
 10
1054.1497728817
 20
-357.7080181994
 10
1051.5798403898
 20
-357.5509647272
 10
1049.1214913662
 20
-357.7154184277
 10
1046.7939657252
 20
-358.2000922279
 10
1044.6154795109
 20
-359.0011928981
 10
1042.6030823314
 20
-360.1124507394
 10
1040.7725239232
 20
-361.5251686524
 10
1039.1381308879
 20
-363.228290204
 10
1037.7126945669
 20
-365.208486159
 10
1036.5073709321
 20
-367.4502587992
 10
1035.5315932753
 20
-369.936063214
 10
1034.7929983794
 20
-372.6464446137
 10
1034.2973667512
 20
-375.5601905888
 10
1034.04857738
 20
-378.6544971265
 10
1034.04857738
 20
-381.9051470828
 10
1034.2973667512
 20
-385.2866997143
 10
1034.7929983794
 20
-388.7726897869
 10
1035.5315932753
 20
-392.3358347016
 10
1036.5073709321
 20
-395.9482480186
 10
1037.7126945669
 20
-399.5816577056
 10
1039.1381308879
 20
-403.2076274055
 10
1040.7725239232
 20
-406.7977789892
 10
1042.6030823314
 20
-410.3240146528
 10
1044.6154795109
 20
-413.7587368211
 10
1046.7939657252
 20
-417.0750641363
 10
1049.1214913662
 20
-420.2470418407
 10
1051.5798403898
 20
-423.2498449079
 10
1054.1497728817
 20
-426.0599723327
 10
1056.8111756359
 20
-428.6554310579
 10
1059.5432195672
 20
-431.0159080998
 10
1062.3245227278
 20
-433.1229295251
 10
1065.1333176492
 20
-434.9600050344
 10
1067.9476217029
 20
-436.5127570211
 10
1070.745409144
 20
-437.7690330955
 10
1073.5047834924
 20
-438.7190011941
 10
1076.2041489024
 20
-439.3552265284
 10
1078.8223791798
 20
-439.6727297725
 10
1081.3389831228
 20
-439.6690260332
 10
1083.7342648934
 20
-439.3441442972
 10
1085.989478164
 20
-438.7006272046
 10
1088.0869728331
 20
-437.743511149
 10
1090.010333161
 20
-436.4802868615
 10
1091.7445062453
 20
-434.9208407847
 10
1093.2759198305
 20
-433.0773776986
 10
1094.5925885288
 20
-430.9643252013
 10
1095.6842076224
 20
-428.5982207935
 10
1096.5422337119
 20
-425.9975824504
 10
1097.1599515798
 20
-423.1827636931
 10
1097.5325267463
 20
-420.1757942948
 10
1097.6570433054
 20
-417.000207868
  0
LWPOLYLINE
  5
CA
330
1F
100
AcDbEntity
  8
0
  6
Continuous
 62
     7
370
    25
100
AcDbPolyline
 90
       79
 70
   128
 43
0.0
 10
1104.7281111172
 20
-421.0822484271
 10
1104.6019999998
 20
-417.3957129744
 10
1104.2244845265
 20
-413.5874813219
 10
1103.5980130301
 20
-409.6822513132
 10
1102.7266484187
 20
-405.7053498634
 10
1101.616041826
 20
-401.6825687045
 10
1100.273395962
 20
-397.639997116
 10
1098.7074184003
 20
-393.6038527259
 10
1096.9282651065
 20
-389.6003114793
 10
1094.9474745722
 20
-385.6553378776
 10
1092.7778929843
 20
-381.7945165883
 10
1090.4335909117
 20
-378.0428865191
 10
1087.9297720531
 20
-374.4247784305
 10
1085.2826746346
 20
-370.9636571419
 10
1082.5094660986
 20
-367.681969353
 10
1079.6281317668
 20
-364.6009980684
 10
1076.6573581979
 20
-361.7407245691
 10
1073.6164119984
 20
-359.1196988264
 10
1070.5250148714
 20
-356.7549191979
 10
1067.4032157136
 20
-354.661722187
 10
1064.2712605903
 20
-352.8536829796
 10
1061.1494614325
 20
-351.3425274036
 10
1058.0580643055
 20
-350.1380558829
 10
1055.0171181061
 20
-349.2480798776
 10
1052.0463445371
 20
-348.6783712234
 10
1049.1650102053
 20
-348.4326246996
 10
1046.3918016693
 20
-348.5124340668
 10
1043.7447042508
 20
-348.9172817306
 10
1041.2408853922
 20
-349.6445420985
 10
1038.8965833197
 20
-350.6894986079
 10
1036.7270017317
 20
-352.045374315
 10
1034.7462111974
 20
-353.7033758454
 10
1032.9670579036
 20
-355.652750423
 10
1031.401080342
 20
-357.8808556057
 10
1030.058434478
 20
-360.3732412763
 10
1028.9478278853
 20
-363.1137433573
 10
1028.0764632738
 20
-366.0845886412
 10
1027.4499917774
 20
-369.2665100562
 10
1027.0724763041
 20
-372.6388716211
 10
1026.9463651867
 20
-376.1798022768
 10
1027.0724763041
 20
-379.8663377295
 10
1027.4499917774
 20
-383.674569382
 10
1028.0764632738
 20
-387.5797993908
 10
1028.9478278853
 20
-391.5567008406
 10
1030.058434478
 20
-395.5794819995
 10
1031.401080342
 20
-399.622053588
 10
1032.9670579036
 20
-403.6581979781
 10
1034.7462111974
 20
-407.6617392246
 10
1036.7270017317
 20
-411.6067128263
 10
1038.8965833197
 20
-415.4675341156
 10
1041.2408853922
 20
-419.2191641848
 10
1043.7447042508
 20
-422.8372722734
 10
1046.3918016693
 20
-426.298393562
 10
1049.1650102053
 20
-429.5800813509
 10
1052.0463445371
 20
-432.6610526355
 10
1055.0171181061
 20
-435.5213261348
 10
1058.0580643055
 20
-438.1423518776
 10
1061.1494614325
 20
-440.507131506
 10
1064.2712605903
 20
-442.6003285169
 10
1067.4032157136
 20
-444.4083677244
 10
1070.5250148714
 20
-445.9195233003
 10
1073.6164119984
 20
-447.123994821
 10
1076.6573581979
 20
-448.0139708264
 10
1079.6281317668
 20
-448.5836794806
 10
1082.5094660986
 20
-448.8294260043
 10
1085.2826746346
 20
-448.7496166371
 10
1087.9297720531
 20
-448.3447689734
 10
1090.4335909117
 20
-447.6175086055
 10
1092.7778929843
 20
-446.572552096
 10
1094.9474745722
 20
-445.216676389
 10
1096.9282651065
 20
-443.5586748586
 10
1098.7074184003
 20
-441.6093002809
 10
1100.273395962
 20
-439.3811950983
 10
1101.616041826
 20
-436.8888094277
 10
1102.7266484187
 20
-434.1483073466
 10
1103.5980130301
 20
-431.1774620628
 10
1104.2244845265
 20
-427.9955406477
 10
1104.6019999998
 20
-424.6231790829
 10
1104.7281111172
 20
-421.0822484271
  0
ENDSEC
  0
SECTION
  2
OBJECTS
  0
DICTIONARY
  5
C
330
0
100
AcDbDictionary
281
     1
  3
ACAD_GROUP
350
D
  3
ACAD_LAYOUT
350
1A
  3
ACAD_MLINESTYLE
350
17
  3
ACAD_PLOTSETTINGS
350
19
  3
ACAD_PLOTSTYLENAME
350
E
  3
ACAD_SCALELIST
350
47
  0
DICTIONARY
  5
D
102
{ACAD_REACTORS
330
C
102
}
330
C
100
AcDbDictionary
281
     1
  0
DICTIONARY
  5
1A
102
{ACAD_REACTORS
330
C
102
}
330
C
100
AcDbDictionary
281
     1
  3
Layout1
350
1E
  3
Layout2
350
26
  3
Model
350
22
  0
DICTIONARY
  5
17
102
{ACAD_REACTORS
330
C
102
}
330
C
100
AcDbDictionary
281
     1
  3
Standard
350
18
  0
DICTIONARY
  5
19
102
{ACAD_REACTORS
330
C
102
}
330
C
100
AcDbDictionary
281
     1
  0
ACDBDICTIONARYWDFLT
  5
E
102
{ACAD_REACTORS
330
C
102
}
330
C
100
AcDbDictionary
281
     1
  3
Normal
350
F
100
AcDbDictionaryWithDefault
340
F
  0
DICTIONARY
  5
47
102
{ACAD_REACTORS
330
C
102
}
330
C
100
AcDbDictionary
281
     1
  3
A0
350
48
  3
A1
350
49
  3
A2
350
4A
  3
A3
350
4B
  3
A4
350
4C
  3
A5
350
4D
  3
A6
350
4E
  3
A7
350
4F
  3
A8
350
50
  3
A9
350
51
  3
B0
350
52
  3
B1
350
53
  3
B2
350
54
  3
B3
350
55
  3
B4
350
56
  3
B5
350
57
  3
B6
350
58
  3
B7
350
59
  3
B8
350
5A
  3
B9
350
5B
  3
C0
350
5C
  3
C1
350
5D
  3
C2
350
5E
  3
C3
350
5F
  3
C4
350
60
  3
C5
350
61
  3
C6
350
62
  3
C7
350
63
  3
C8
350
64
  3
C9
350
65
  3
D0
350
66
  3
D1
350
67
  3
D2
350
68
  0
LAYOUT
  5
1E
102
{ACAD_REACTORS
330
1A
102
}
330
1A
100
AcDbPlotSettings
  1

  2
none_device
  4

  6

 40
0.0
 41
0.0
 42
0.0
 43
0.0
 44
0.0
 45
0.0
 46
0.0
 47
0.0
 48
0.0
 49
0.0
140
0.0
141
0.0
142
1.0
143
1.0
 70
   688
 72
     1
 73
     0
 74
     5
  7

 75
    16
147
1.0
148
0.0
149
0.0
100
AcDbLayout
  1
Layout1
 70
     1
 71
     1
 10
0.0
 20
0.0
 11
420.0
 21
297.0
 12
0.0
 22
0.0
 32
0.0
 14
1.0000000000E+20
 24
1.0000000000E+20
 34
1.0000000000E+20
 15
-1.0000000000E+20
 25
-1.0000000000E+20
 35
-1.0000000000E+20
146
0.0
 13
0.0
 23
0.0
 33
0.0
 16
1.0
 26
0.0
 36
0.0
 17
0.0
 27
1.0
 37
0.0
 76
     0
330
1B
  0
LAYOUT
  5
26
102
{ACAD_REACTORS
330
1A
102
}
330
1A
100
AcDbPlotSettings
  1

  2
none_device
  4

  6

 40
0.0
 41
0.0
 42
0.0
 43
0.0
 44
0.0
 45
0.0
 46
0.0
 47
0.0
 48
0.0
 49
0.0
140
0.0
141
0.0
142
1.0
143
1.0
 70
   688
 72
     1
 73
     0
 74
     5
  7

 75
    16
147
1.0
148
0.0
149
0.0
100
AcDbLayout
  1
Layout2
 70
     1
 71
     2
 10
0.0
 20
0.0
 11
0.0
 21
0.0
 12
0.0
 22
0.0
 32
0.0
 14
0.0
 24
0.0
 34
0.0
 15
0.0
 25
0.0
 35
0.0
146
0.0
 13
0.0
 23
0.0
 33
0.0
 16
1.0
 26
0.0
 36
0.0
 17
0.0
 27
1.0
 37
0.0
 76
     0
330
23
  0
LAYOUT
  5
22
102
{ACAD_REACTORS
330
1A
102
}
330
1A
100
AcDbPlotSettings
  1

  2
none_device
  4
Letter_(8.50_x_11.00_Inches)
  6

 40
6.35
 41
6.35
 42
6.35000508
 43
6.35000508
 44
215.9
 45
279.4
 46
0.0
 47
0.0
 48
0.0
 49
0.0
140
0.0
141
0.0
142
1.0
143
1.0
 70
  1712
 72
     1
 73
     0
 74
     0
  7

 75
     0
147
1.0
148
0.0
149
0.0
100
AcDbLayout
  1
Model
 70
     1
 71
     0
 10
0.0
 20
0.0
 11
279.4
 21
215.9
 12
0.0
 22
0.0
 32
0.0
 14
0.0
 24
0.0
 34
0.0
 15
279.4
 25
215.9
 35
0.0
146
0.0
 13
0.0
 23
0.0
 33
0.0
 16
1.0
 26
0.0
 36
0.0
 17
0.0
 27
1.0
 37
0.0
 76
     0
330
1F
331
29
  0
MLINESTYLE
  5
18
102
{ACAD_REACTORS
330
17
102
}
330
17
100
AcDbMlineStyle
  2
Standard
 70
     0
  3

 62
   256
 51
90.0
 52
90.0
 71
     2
 49
0.5
 62
   256
  6
BYLAYER
 49
-0.5
 62
   256
  6
BYLAYER
  0
ACDBPLACEHOLDER
  5
F
102
{ACAD_REACTORS
330
E
102
}
330
E
  0
SCALE
  5
48
102
{ACAD_REACTORS
330
47
102
}
330
47
100
AcDbScale
 70
     0
300
1:1
140
1.0
141
1.0
290
     1
  0
SCALE
  5
49
102
{ACAD_REACTORS
330
47
102
}
330
47
100
AcDbScale
 70
     0
300
1:2
140
1.0
141
2.0
290
     0
  0
SCALE
  5
4A
102
{ACAD_REACTORS
330
47
102
}
330
47
100
AcDbScale
 70
     0
300
1:4
140
1.0
141
4.0
290
     0
  0
SCALE
  5
4B
102
{ACAD_REACTORS
330
47
102
}
330
47
100
AcDbScale
 70
     0
300
1:5
140
1.0
141
5.0
290
     0
  0
SCALE
  5
4C
102
{ACAD_REACTORS
330
47
102
}
330
47
100
AcDbScale
 70
     0
300
1:8
140
1.0
141
8.0
290
     0
  0
SCALE
  5
4D
102
{ACAD_REACTORS
330
47
102
}
330
47
100
AcDbScale
 70
     0
300
1:10
140
1.0
141
10.0
290
     0
  0
SCALE
  5
4E
102
{ACAD_REACTORS
330
47
102
}
330
47
100
AcDbScale
 70
     0
300
1:16
140
1.0
141
16.0
290
     0
  0
SCALE
  5
4F
102
{ACAD_REACTORS
330
47
102
}
330
47
100
AcDbScale
 70
     0
300
1:20
140
1.0
141
20.0
290
     0
  0
SCALE
  5
50
102
{ACAD_REACTORS
330
47
102
}
330
47
100
AcDbScale
 70
     0
300
1:30
140
1.0
141
30.0
290
     0
  0
SCALE
  5
51
102
{ACAD_REACTORS
330
47
102
}
330
47
100
AcDbScale
 70
     0
300
1:40
140
1.0
141
40.0
290
     0
  0
SCALE
  5
52
102
{ACAD_REACTORS
330
47
102
}
330
47
100
AcDbScale
 70
     0
300
1:50
140
1.0
141
50.0
290
     0
  0
SCALE
  5
53
102
{ACAD_REACTORS
330
47
102
}
330
47
100
AcDbScale
 70
     0
300
1:100
140
1.0
141
100.0
290
     0
  0
SCALE
  5
54
102
{ACAD_REACTORS
330
47
102
}
330
47
100
AcDbScale
 70
     0
300
2:1
140
2.0
141
1.0
290
     0
  0
SCALE
  5
55
102
{ACAD_REACTORS
330
47
102
}
330
47
100
AcDbScale
 70
     0
300
4:1
140
4.0
141
1.0
290
     0
  0
SCALE
  5
56
102
{ACAD_REACTORS
330
47
102
}
330
47
100
AcDbScale
 70
     0
300
8:1
140
8.0
141
1.0
290
     0
  0
SCALE
  5
57
102
{ACAD_REACTORS
330
47
102
}
330
47
100
AcDbScale
 70
     0
300
10:1
140
10.0
141
1.0
290
     0
  0
SCALE
  5
58
102
{ACAD_REACTORS
330
47
102
}
330
47
100
AcDbScale
 70
     0
300
100:1
140
100.0
141
1.0
290
     0
  0
SCALE
  5
59
102
{ACAD_REACTORS
330
47
102
}
330
47
100
AcDbScale
 70
     0
300
1/128" = 1'-0"
140
0.0078125
141
12.0
290
     0
  0
SCALE
  5
5A
102
{ACAD_REACTORS
330
47
102
}
330
47
100
AcDbScale
 70
     0
300
1/64" = 1'-0"
140
0.015625
141
12.0
290
     0
  0
SCALE
  5
5B
102
{ACAD_REACTORS
330
47
102
}
330
47
100
AcDbScale
 70
     0
300
1/32" = 1'-0"
140
0.03125
141
12.0
290
     0
  0
SCALE
  5
5C
102
{ACAD_REACTORS
330
47
102
}
330
47
100
AcDbScale
 70
     0
300
1/16" = 1'-0"
140
0.0625
141
12.0
290
     0
  0
SCALE
  5
5D
102
{ACAD_REACTORS
330
47
102
}
330
47
100
AcDbScale
 70
     0
300
3/32" = 1'-0"
140
0.09375
141
12.0
290
     0
  0
SCALE
  5
5E
102
{ACAD_REACTORS
330
47
102
}
330
47
100
AcDbScale
 70
     0
300
1/8" = 1'-0"
140
0.125
141
12.0
290
     0
  0
SCALE
  5
5F
102
{ACAD_REACTORS
330
47
102
}
330
47
100
AcDbScale
 70
     0
300
3/16" = 1'-0"
140
0.1875
141
12.0
290
     0
  0
SCALE
  5
60
102
{ACAD_REACTORS
330
47
102
}
330
47
100
AcDbScale
 70
     0
300
1/4" = 1'-0"
140
0.25
141
12.0
290
     0
  0
SCALE
  5
61
102
{ACAD_REACTORS
330
47
102
}
330
47
100
AcDbScale
 70
     0
300
3/8" = 1'-0"
140
0.375
141
12.0
290
     0
  0
SCALE
  5
62
102
{ACAD_REACTORS
330
47
102
}
330
47
100
AcDbScale
 70
     0
300
1/2" = 1'-0"
140
0.5
141
12.0
290
     0
  0
SCALE
  5
63
102
{ACAD_REACTORS
330
47
102
}
330
47
100
AcDbScale
 70
     0
300
3/4" = 1'-0"
140
0.75
141
12.0
290
     0
  0
SCALE
  5
64
102
{ACAD_REACTORS
330
47
102
}
330
47
100
AcDbScale
 70
     0
300
1" = 1'-0"
140
1.0
141
12.0
290
     0
  0
SCALE
  5
65
102
{ACAD_REACTORS
330
47
102
}
330
47
100
AcDbScale
 70
     0
300
1-1/2" = 1'-0"
140
1.5
141
12.0
290
     0
  0
SCALE
  5
66
102
{ACAD_REACTORS
330
47
102
}
330
47
100
AcDbScale
 70
     0
300
3" = 1'-0"
140
3.0
141
12.0
290
     0
  0
SCALE
  5
67
102
{ACAD_REACTORS
330
47
102
}
330
47
100
AcDbScale
 70
     0
300
6" = 1'-0"
140
6.0
141
12.0
290
     0
  0
SCALE
  5
68
102
{ACAD_REACTORS
330
47
102
}
330
47
100
AcDbScale
 70
     0
300
1'-0" = 1'-0"
140
12.0
141
12.0
290
     0
  0
ENDSEC
  0
EOF
